La Communauté Française de Groundation
 
AccueilAccueil  RechercherRechercher  S'enregistrerS'enregistrer  Connexion  
-54%
Le deal à ne pas rater :
Tondeuse à barbe Babyliss Designer SH500E
59.99 € 129.99 €
Voir le deal

 

 quelques corrections des tab précedentes

Aller en bas 
AuteurMessage
flea67
Noob
Noob


Nombre de messages : 11
Date d'inscription : 15/07/2010

quelques corrections des tab précedentes Empty
MessageSujet: quelques corrections des tab précedentes   quelques corrections des tab précedentes EmptyDim 18 Juil - 5:33

pont de jah jah know
----------------------------------------------------------------------------------
--------------------------------------------------------------------------6h8-6--
-----------------------------------------------------------------------6-----------
-1--1413--3636---6666--44-4/8---4- 1--1413--3636--6666--4-------------

craven fe dead

----------------------------------------------------------------------------------
----------------------------------------------------------------------------------
-------1/5---8/10-----------1/5---8/13-----------1/55--1h3-1---------------
-1h3------------------1h3-------------------1h3-------------------------------



----------------------------------------------------------------------------------
----------------------------------------------------------------------------------
-17/---5-------------------------8765----------------------------------------------
-----------3-33333---------------------------3-33333-----------------------------
Revenir en haut Aller en bas
 
quelques corrections des tab précedentes
Revenir en haut 
Page 1 sur 1

Permission de ce forum:Vous ne pouvez pas répondre aux sujets dans ce forum
Le Forum Groundation.fr :: Actualité de Groundation & autres projets :: La musique by Groundation-
Sauter vers:  
Ne ratez plus aucun deal !
Abonnez-vous pour recevoir par notification une sélection des meilleurs deals chaque jour.
IgnorerAutoriser