La Communauté Française de Groundation
 
AccueilAccueil  RechercherRechercher  S'enregistrerS'enregistrer  Connexion  
Le Deal du moment :
Amazon Music Unlimited offert pendant 3 mois
Voir le deal

 

 tablatures

Aller en bas 
AuteurMessage
flea67
Noob
Noob


Nombre de messages : 11
Date d'inscription : 15/07/2010

tablatures Empty
MessageSujet: tablatures   tablatures EmptyDim 18 Juil - 7:11

j'ai trouvé des parties de riff de quelques chansons donc j'en met quelques unes maintenant je garde le reste pour la suite.pour les autres riff des chansons je chercherait plus tard et je les mettrait quand je les trouverait!!!bonne gratouille a tous...

long long ago

---------------------------------5--------5------------------------------------------
x-7-----------------------5--7-----7------7---------7------------------------57---
----x------2/5--5--87------------------------x-3/7----x---------2/5--5-87-----x-
-------5-3--------------------------------------------------5--3-------------------5


----------------7-------------------------------------------------------7h9/--------
-------5--789--------OU----------5-------------------------5---789---------------
--567------------------------567-----------5----OU---567-------------------------
---------------------------------------567-------------------------------------------

voila pour l'instant j'ai ça....j'ai pas encore la fin du 2e riff et il manque la transition...

young tree

--------------------------------------------------------------------------------------
----------------------------------------------------------4------6-------------------
-5--5h7/------------variation( parmi plusieurs)-2/5----5/7----------------4----
-----------5/2--5/2---------------------------------------------------5/222-5--52-

transition+début refrain
-----------------------8----8--------------------------------------------------------
--------------------------9----9-----------------------------------------------------
-----------7--9--------------------9-------------------------------------------------
--5/2--5--------------------------------777-----------------------------------------

voila je bloque ici....si quelqu'un peut m'aider ou a des corrections n'hésiter pas...a bientot pour d'autres tab.
Revenir en haut Aller en bas
 
tablatures
Revenir en haut 
Page 1 sur 1

Permission de ce forum:Vous ne pouvez pas répondre aux sujets dans ce forum
Le Forum Groundation.fr :: Actualité de Groundation & autres projets :: La musique by Groundation-
Sauter vers:  
Ne ratez plus aucun deal !
Abonnez-vous pour recevoir par notification une sélection des meilleurs deals chaque jour.
IgnorerAutoriser