La Communauté Française de Groundation
 
AccueilAccueil  RechercherRechercher  S'enregistrerS'enregistrer  Connexion  
-23%
Le deal à ne pas rater :
TV QLED Samsung QE65Q65R 2019
999 € 1299 €
Voir le deal

 

 Tablatures basse Groundation

Aller en bas 
Aller à la page : 1, 2, 3, 4, 5, 6, 7  Suivant
AuteurMessage
Forster
Grounded Soldier
Grounded Soldier
Forster

Nombre de messages : 286
Localisation : paris/bordeaux
Date d'inscription : 11/08/2006

Tablatures basse Groundation Empty
MessageSujet: Tablatures basse Groundation   Tablatures basse Groundation EmptyVen 27 Avr - 1:29

Est ce que certains d'entre vous ont des tablatures de basses de groundation? ou seraient capable de retranscrire?

J'ai un peu cherché sur le net, pas moyen de trouver glory to the kings ou meme une seule de morceaux de young tree Crying or Very sad
Revenir en haut Aller en bas
Pierro
Grounded Massive
Grounded Massive


Nombre de messages : 117
Localisation : le havre & rouen
Date d'inscription : 28/01/2006

Tablatures basse Groundation Empty
MessageSujet: Re: Tablatures basse Groundation   Tablatures basse Groundation EmptyVen 27 Avr - 1:59

glory to the king :



-------------------------------------------------------------------------
-------------------------------------------------------------------------
-------------------------------------------------------------------------
7------------------------5-7-------------5---7------------7-------------
---0--00-3-5-3-0-0-0-------00-3--5------------00---7----7-0---------

mi/mi sol la sol mi ré mi mi sol la ré mi

euh je n'suis pas tres tablature, je fais tout à l'oreille...la ligne tourne autour de ça..apres rythmiquement, y'a des notes fantômes (pincer la corde en laissant la main gauche posée sans appuyer) etc

j'espere que les notes t'aideront un peu, mais je pense que t'a plus vite fait de trouver à l'oreille par dessus le cd...tcho

c'est vrai que c'est plus pratique de montrer "en vrai"
Revenir en haut Aller en bas
Forster
Grounded Soldier
Grounded Soldier
Forster

Nombre de messages : 286
Localisation : paris/bordeaux
Date d'inscription : 11/08/2006

Tablatures basse Groundation Empty
MessageSujet: Re: Tablatures basse Groundation   Tablatures basse Groundation EmptyVen 27 Avr - 3:29

on doit pas avoir la meme basse lol!

J'avais commencé a repiquer également, mais je commencais a galerer...jusque la j'avais plutot pour l'intro (et j'en était content... Razz )




------------------------------------------------
------------------------------------------------
-4------0-2------4-4--------------------------
---5-5------3-5-------------------------------
Revenir en haut Aller en bas
Wooten2a
Absolute Grounded
Absolute Grounded
Wooten2a

Nombre de messages : 1102
Age : 37
Localisation : re-Ajaccio
Date d'inscription : 20/02/2007

Tablatures basse Groundation Empty
MessageSujet: Re: Tablatures basse Groundation   Tablatures basse Groundation EmptyVen 27 Avr - 5:49

Je serai plutôt d'acord avec Pierro. Mis à part le Ré que je ferai en Ré#
Sol: ------------
Ré: ------------
La: ------6-7\-
Mi: 0-0--------

Vérifie l'accordage de ta basse, Forster, on ne sait jamais.
Revenir en haut Aller en bas
Invité
Invité



Tablatures basse Groundation Empty
MessageSujet: Re: Tablatures basse Groundation   Tablatures basse Groundation EmptyVen 27 Avr - 6:00

Euh moi quand je le joue c'est la même chose que Pierro (accordé en EADG). Je pense pas que tu trouveras grand chose sur le net, c'est hyper chiant à tabler la basse. Si je peux te donner un conseil, concentre toi sur les morceaux ou tu préferes la basse et chope les lignes à l'oreille. Tu auras un son bien plus "autenthique" surtout que Ryan truffe ses compos que de dead notes donc vaut mieux bien écouter que lire des chiffres. Enfin ceci reste mon opinion...
Revenir en haut Aller en bas
Wooten2a
Absolute Grounded
Absolute Grounded
Wooten2a

Nombre de messages : 1102
Age : 37
Localisation : re-Ajaccio
Date d'inscription : 20/02/2007

Tablatures basse Groundation Empty
MessageSujet: Re: Tablatures basse Groundation   Tablatures basse Groundation EmptyVen 27 Avr - 6:40

Regarde sur le forum, y'a une vidéo de ftbass (je crois) qui la joue:
https://groundation.forumactif.fr/Les-albums-c1/Young-Tree-f2/Glory-To-The-Kings-t272.htm

Du coup j'en ai profité pour chercher un peu Long Long Ago, voilà où j'en suis (c'est pas définitif)
Edit:

---------------------------------------------5---------------------
-7----------------------------5--------5--7---7---------7-----------
---x-----------2--5-----5-------7------------------x5-7---x-------
------5----x3--------------------------------------------------5----


Dernière édition par le Sam 28 Avr - 0:52, édité 1 fois
Revenir en haut Aller en bas
anmix
Noob
Noob


Nombre de messages : 7
Date d'inscription : 13/10/2006

Tablatures basse Groundation Empty
MessageSujet: Re: Tablatures basse Groundation   Tablatures basse Groundation EmptyVen 27 Avr - 19:32

Salut! il existe aussi un pti site avec quelques tablatures de basse reggae.Y'a surtout les tablatures de grat, qui peuvent être utile car ça donne les accords de base...On peut même rajouter des tablatures quand on est sur d'avoir repiqué la bonne basse!
http://www.broz-reggae-tabs.com/
Revenir en haut Aller en bas
Wooten2a
Absolute Grounded
Absolute Grounded
Wooten2a

Nombre de messages : 1102
Age : 37
Localisation : re-Ajaccio
Date d'inscription : 20/02/2007

Tablatures basse Groundation Empty
MessageSujet: Re: Tablatures basse Groundation   Tablatures basse Groundation EmptySam 28 Avr - 1:05

Essayons Craven Fe Dead:

Intro&Couplet (+ de nombreuses variations)
----------------------------------------------------------
----------------------------------------------------------
-----------------8/10\-------------------8/13\---------
--0-3---6/10--------------0-3---6/10-----------------


----------------------------------------------------------
----------------------------------------------------------
-----------------8/10\----------------------------------
--0-3---6/10--------------0-3---6/10-8-6-5\---------

Refrain:
----------------------------- -------------------------------------
------------------------------ -----------------------------------
-------------5--------------- x4 puis --8-7-6-5-----------------
----------------3-3-33-33-- ---------------------3-3-3333------
Revenir en haut Aller en bas
Doud
Grounded Warrior
Grounded Warrior
Doud

Nombre de messages : 906
Age : 36
Localisation : Nîmes
Date d'inscription : 19/02/2007

Tablatures basse Groundation Empty
MessageSujet: Re: Tablatures basse Groundation   Tablatures basse Groundation EmptySam 26 Mai - 14:39

j'ai relevé weak heart récemment. y'a deux parties :

1ere
---------------------------------------
--------57----------------57---------
---757-----57--------77-----57------
-6---------------6-----------------6--

2nd (répétée quatres fois avec une fin différente à chaque fois)
------------5---------------------
----66643---3---------------8-----
-4-------------------3----4-8------
----------------4---4--46---------

--------------
--------------
--3-----4----
-4---46--6--

--------------
------------8--
--3-----4-8--
-4---46-----

--------------
--------------
--3----------
-4---46-----

j'espère que c'est assez clair, j'suis pas très bon en tablatures...
j'promets de m'améliorer Razz


Dernière édition par le Dim 27 Mai - 0:52, édité 1 fois
Revenir en haut Aller en bas
Wooten2a
Absolute Grounded
Absolute Grounded
Wooten2a

Nombre de messages : 1102
Age : 37
Localisation : re-Ajaccio
Date d'inscription : 20/02/2007

Tablatures basse Groundation Empty
MessageSujet: Re: Tablatures basse Groundation   Tablatures basse Groundation EmptySam 26 Mai - 23:04

Ce ne serait pas ça la première partie?


------------------------------------------------------
---------------6-8--------------------6-8 ----------
--------8-6-8------6-8-------8-6-8-------6-8-------
-6-6--------------------6-6--------------------6-6-
Revenir en haut Aller en bas
Doud
Grounded Warrior
Grounded Warrior
Doud

Nombre de messages : 906
Age : 36
Localisation : Nîmes
Date d'inscription : 19/02/2007

Tablatures basse Groundation Empty
MessageSujet: Re: Tablatures basse Groundation   Tablatures basse Groundation EmptyDim 27 Mai - 0:51

ah je sais pas... promis je vérifie dès que j'ai la basse dans les mains.
par contre j'édite mon message, j'me suis légèrement trompé sur les 1ere et 3eme fins de la 2nd partie.
Revenir en haut Aller en bas
Doud
Grounded Warrior
Grounded Warrior
Doud

Nombre de messages : 906
Age : 36
Localisation : Nîmes
Date d'inscription : 19/02/2007

Tablatures basse Groundation Empty
MessageSujet: Re: Tablatures basse Groundation   Tablatures basse Groundation EmptyDim 27 Mai - 14:14

Wooten2a a écrit:
Ce ne serait pas ça la première partie?

you're right man !
si t'en as relevé d'autres, n'hésite pas Razz
Revenir en haut Aller en bas
Wooten2a
Absolute Grounded
Absolute Grounded
Wooten2a

Nombre de messages : 1102
Age : 37
Localisation : re-Ajaccio
Date d'inscription : 20/02/2007

Tablatures basse Groundation Empty
MessageSujet: Re: Tablatures basse Groundation   Tablatures basse Groundation EmptyLun 28 Mai - 6:11

Pas d'autres pour l'instant, mais si on s'y met a deux, on peut bien s'en sortir....
Revenir en haut Aller en bas
Doud
Grounded Warrior
Grounded Warrior
Doud

Nombre de messages : 906
Age : 36
Localisation : Nîmes
Date d'inscription : 19/02/2007

Tablatures basse Groundation Empty
MessageSujet: Re: Tablatures basse Groundation   Tablatures basse Groundation EmptyMar 10 Juil - 3:54

j'ai relevé Down, j'espère que cette fois je vais pas me tromper dans la tab... Laughing

-----------------------------------------------------------------------------------------2----------------------------
-0---------------022-----22-------------2-----------------------------------0--2-----00-2---------22-----2222-
---30-00--032--------------3-2-33---3-(3)0--0-----030------0-0--003-----00--------0--032------2-------
-----------------------0----------------------------(0)0------0------------------------------------------0---------


------------------------------------------------------012---------------------------------------------------------------------------22-----------------------------------------------------------------------
-------------2-----------------------------------0-2----------2--------0-22--(2)--2222---------------------------------------0-------------------------2-------------------2------------------22----------
-3-2-33--3---(3)0-0-------030----0-0-003---------0-0----3-0-2---------------------3-2-33-----0-0-023----0-0-023--------30--032------2----3-----3-2-33--3---0--0--0--0-00------0--0---
-----------------------(0)0-------0-----------------------------------------------0-----------------03------------0--------------------------------00---3----3-0-----------------0-----0--------------0----


-------------22-2----------------------------------------------------------------------------------012-----650---------------------------0----------------------
------0--0---------------------022----22--------------2----------------------------------0--22---------------2---22----22-2------------2--------------------
-003--------------0-0-00-03--------------3-2-33--3----0-0-------030----0--0--003------------00---------0--------------3-2-33------(3)0-0----030----
-------------------------------------0---------------------------(0)0-------0-------------------------------------------0--------------------------------0---------


---------------------------------------------------------------------------------------------------012-------650------------------------------------------------------------------------------------------
-0---------------------------------2-----------2-------------------2-22-2----------------0-22-----------------2----22---20------------------2---------02-202-------------------0---------------------
---30---0--0---032-----------2------3-2-33---3---0--0-0--0-------------0-00---03------------0-0----------0-----------2-0-----3-2-33---320-0----------3-0----0-0-003---0----0------0-00-
-------0--0---0------00--03-0-0--0--------------0---0-----0-----------0-------0------------------------------------0----------30-----------------------------------0--------------0-0-0--0--0-------


-----------------------------0----------20------------------22--2----22---------------------------------------------------------------------------
------------------------------2------------2---------------0-------------------------2-----22-2---------------2--------------------22-------------0--
-------------2--2---3-2-33----(3)0-0-----0--0-0-003----------00-----032-------3-3---------3-2-33--3--(3)0-0-------030-----0-0-003----
-320--03-3-3--0----------------------------0---------------------------------0-0-------------0-----------------------(0)0------------------------
Revenir en haut Aller en bas
Wooten2a
Absolute Grounded
Absolute Grounded
Wooten2a

Nombre de messages : 1102
Age : 37
Localisation : re-Ajaccio
Date d'inscription : 20/02/2007

Tablatures basse Groundation Empty
MessageSujet: Re: Tablatures basse Groundation   Tablatures basse Groundation EmptyMer 29 Aoû - 1:14

What Could Have Been


Intro - Couplet
-!-----------------------9----------------------------------
-!--9 h 11--------------------9-h-11----------------------
-!--------------------------------------------------9-h-11-
-!----------9-9-9---------------------9-9-9---------------

Pre refrain:
-!-------------------------------------------
-!--9 h 11--------------9-h-11------------
-!-------------------------------------------
-!----------9-9-9----------------9-9-9-----

Refrain:
-!------------------------------------
-!------------------------------------
-!--7----7------7-----------6-4-----
-!----------7--------4----4------7--

-!----------------------------------------------------------------------------------
-!----------------------------------------------------------------------------------
-!------------9-h-11-11-----9-h-11-11---------------9-h-11-11-----9-h-11-11
-!-9\-4-4------------------------------------9\-4-4-------------------------------

(suis en retard pour le boulot, je terminerai plus tard !!)
Revenir en haut Aller en bas
Wooten2a
Absolute Grounded
Absolute Grounded
Wooten2a

Nombre de messages : 1102
Age : 37
Localisation : re-Ajaccio
Date d'inscription : 20/02/2007

Tablatures basse Groundation Empty
MessageSujet: Re: Tablatures basse Groundation   Tablatures basse Groundation EmptyMer 29 Aoû - 5:09

... je continue

Couplet
Pre refrain
Refrain
Refrain

Fin:
-!-------------------------------------------------------------------------
-!------------------------9------------------------------------9--------------
-!-9-h-11------9-h-11---11---------9-h-11------9-h-11---11---------
-!----------9-------------------9----------------9------------------9-------

Le tout reste un peu approximatif, dans le sens ou il y a pas mal de variations selon l'humeur et les vibes de Mr Newman et que mon oreille est plus ou moins fiable!
Revenir en haut Aller en bas
Wooten2a
Absolute Grounded
Absolute Grounded
Wooten2a

Nombre de messages : 1102
Age : 37
Localisation : re-Ajaccio
Date d'inscription : 20/02/2007

Tablatures basse Groundation Empty
MessageSujet: Re: Tablatures basse Groundation   Tablatures basse Groundation EmptySam 1 Sep - 1:14

Nous y voilà: ME NA IN DE !!!!

Là ça devient sérieux. Non pas que la partie basse soit plus technique, mais elle est super interressante à jouer. D'une part elle est très en avant, c'est la ligne mélodique principale du morceau, et d'autre part elle a une grosse coloration jazz avec un jeu qui alterne ternaire-binaire des petits accents bien placés et un groove basse-batterie qui frôle la perfection!


Intro:
-!-------------4-------------------------4------------!
-!----------4----6-6-----------------4----6-6--------!
-!----6---------------5---------6--------------5------!
-!-4-------------------------x4------------------7--x!

Couplet:
-!-------------4-------------------------4------------
-!----------4----6-6------------------4---6-6--------
-!----6---------------5---------6--------------5-5----
-!-4-------------------------x4---------------------x-
x2
--------------4--------------------------4------------!
-----------4----6-6-----------------x4----6-6-------!
-----6---------------5---------6---------------5-----!
--4-------------------------x4-------------------7---!

"Me na in de..."
-!--------------------------------------------------------------!
-!------------------6-6\---------------------------------------!
-!--------------------------6-6--6-4--6/--------------x6-----!
-!-----------------------------------------x4-4-4---------6---!

"Me na in de..."
-!---------------------------------------------------------------------!
-!---------------------------------------------------------------------!
-!--------------------------6-6--6-4--6/-----------------------5----!
-!------------------4\-----------------------x4-4-4-----4--6-----6-!

Couplet (variation):
-!-------------------4-------------------------4----------------!
-!--------------4-6----6-6------------------4---6-6-----------!
-!------------6--------------5---------6--------------5-5------!
-!--------------------------------x4-------------------------x--!

Puis on continue jusqu'a la fin du solo de trompette avec la ligne du couplet

"I don't see..."
-!--------------------------------------------------------------!
-!------------------6-6\---------------------------------------!
-!--------------------------6-6--6-4--6/--------------x6-----!
-!-----------------------------------------x4-4-4---------6---!

"Life is..."
-!---------------------------------------------------------------------!
-!---------------------------------------------------------------------!
-!--------------------------6-6--6-4--6/-----------------------5----!
-!------------------4\-----------------------x4-4-4-----4--6-----6-!

Couplet
Couplet (partie de cuivres et batterie drunken )

Fin:
-!--------------4--------------------------4-------------------!
-!----------x4----6-6------------------4---6-6--------------!
-!----6----------------5----------6---------------5-5\-------! x2
-!-4-------------------------x4-------------------------------!

-!------------------4------------------------4------------------!
-!---------------4----6-6----------------4---6-6-------------!
-!------------6------------5-----------6----------5-5\-------! x2
-!----------4-------------------------4------------------------!


/ = slide ascendant (vers le corps de la basse)
\ = slide descendant (vers la tête)(de la basse pas la votre Wink )
x = note étoufée en attaquant bien fort main droite en laissant sa main gauche posée sur les cordes


Ouéééééé
Revenir en haut Aller en bas
Doud
Grounded Warrior
Grounded Warrior
Doud

Nombre de messages : 906
Age : 36
Localisation : Nîmes
Date d'inscription : 19/02/2007

Tablatures basse Groundation Empty
MessageSujet: Re: Tablatures basse Groundation   Tablatures basse Groundation EmptyLun 3 Sep - 0:05

merci beaucoup Wooten2a !
j'essaie ca dès que j'ai un moment.
Revenir en haut Aller en bas
Doud
Grounded Warrior
Grounded Warrior
Doud

Nombre de messages : 906
Age : 36
Localisation : Nîmes
Date d'inscription : 19/02/2007

Tablatures basse Groundation Empty
MessageSujet: Re: Tablatures basse Groundation   Tablatures basse Groundation EmptyLun 8 Oct - 3:51

merci Wooten2a, j'ai enfin pris le temps d'essayer tes deux morceaux.
c'est vrai que ME NA IN DE est vraiment extra à jouer ! tu prends le coup en même pas 2 minutes mais tu t'éclates !
Revenir en haut Aller en bas
Fredodo
Grounded Soldier
Grounded Soldier


Nombre de messages : 416
Age : 35
Localisation : Limousin
Date d'inscription : 16/02/2007

Tablatures basse Groundation Empty
MessageSujet: Re: Tablatures basse Groundation   Tablatures basse Groundation EmptyLun 8 Oct - 6:27

Joli travaille tout le monde. Faudrait que je m'y mettes aussi.
Revenir en haut Aller en bas
Antoine
Webmaster
Webmaster
Antoine

Nombre de messages : 2878
Age : 33
Localisation : France
Date d'inscription : 16/09/2005

Tablatures basse Groundation Empty
MessageSujet: Re: Tablatures basse Groundation   Tablatures basse Groundation EmptyLun 8 Oct - 6:40

Ouais merci Wooten !

_________________
Education is the key
Revenir en haut Aller en bas
http://www.groundation.fr
Lizou
Grounded Soldier
Grounded Soldier
Lizou

Nombre de messages : 339
Age : 34
Localisation : Lyon
Date d'inscription : 28/07/2007

Tablatures basse Groundation Empty
MessageSujet: Re: Tablatures basse Groundation   Tablatures basse Groundation EmptyLun 8 Oct - 20:05

bon je vais essayer de me mettre a me na in de, j'adore ce morceau, c'est donc une bonne raison pour commencer par celui la
Revenir en haut Aller en bas
Lizou
Grounded Soldier
Grounded Soldier
Lizou

Nombre de messages : 339
Age : 34
Localisation : Lyon
Date d'inscription : 28/07/2007

Tablatures basse Groundation Empty
MessageSujet: Re: Tablatures basse Groundation   Tablatures basse Groundation EmptyJeu 11 Oct - 4:55

Vous aviez raison, ME NA IN DE est vraiment sympa a jouer, pas compliqué mais c'est trop bien cheers
Revenir en haut Aller en bas
Antoine
Webmaster
Webmaster
Antoine

Nombre de messages : 2878
Age : 33
Localisation : France
Date d'inscription : 16/09/2005

Tablatures basse Groundation Empty
MessageSujet: Re: Tablatures basse Groundation   Tablatures basse Groundation EmptyJeu 11 Oct - 4:56

quelqun peut faire une ptite vidéo ?

_________________
Education is the key
Revenir en haut Aller en bas
http://www.groundation.fr
Lizou
Grounded Soldier
Grounded Soldier
Lizou

Nombre de messages : 339
Age : 34
Localisation : Lyon
Date d'inscription : 28/07/2007

Tablatures basse Groundation Empty
MessageSujet: Re: Tablatures basse Groundation   Tablatures basse Groundation EmptyJeu 11 Oct - 4:58

Crying or Very sad a pas de caméra moi Crying or Very sad
Revenir en haut Aller en bas
Contenu sponsorisé




Tablatures basse Groundation Empty
MessageSujet: Re: Tablatures basse Groundation   Tablatures basse Groundation Empty

Revenir en haut Aller en bas
 
Tablatures basse Groundation
Revenir en haut 
Page 1 sur 7Aller à la page : 1, 2, 3, 4, 5, 6, 7  Suivant

Permission de ce forum:Vous ne pouvez pas répondre aux sujets dans ce forum
Le Forum Groundation.fr :: Actualité de Groundation & autres projets :: La musique by Groundation-
Sauter vers:  
Ne ratez plus aucun deal !
Abonnez-vous pour recevoir par notification une sélection des meilleurs deals chaque jour.
IgnorerAutoriser