La Communauté Française de Groundation
 
AccueilAccueil  RechercherRechercher  S'enregistrerS'enregistrer  Connexion  
-15%
Le deal à ne pas rater :
HUAWEI MateBook – PC Portable 13″
849 € 999 €
Voir le deal

 

 Tablatures basse Groundation

Aller en bas 
Aller à la page : Précédent  1, 2, 3, 4, 5, 6, 7
AuteurMessage
Jahlove

Jahlove

Nombre de messages : 2
Age : 31
Localisation : Garches
Date d'inscription : 16/01/2010

Tablatures basse Groundation - Page 7 Empty
MessageSujet: Re: Tablatures basse Groundation   Tablatures basse Groundation - Page 7 EmptySam 16 Jan - 6:06

Salut, je me suis récemment mit à la basse je cherche quelqu'un qui aurait les tabs (approximatives) de Young tree, Nonbeliever, Here I am ou Throwing stones. Je suis encore un novice j'ai dut mal à les trouver seul si quelqu'un peut m'aider svp.
Revenir en haut Aller en bas
Usul
Grounded Fan
Grounded Fan
Usul

Nombre de messages : 76
Age : 28
Localisation : Lagny, 77
Date d'inscription : 05/11/2009

Tablatures basse Groundation - Page 7 Empty
MessageSujet: Re: Tablatures basse Groundation   Tablatures basse Groundation - Page 7 EmptyMer 20 Jan - 13:44

Here I am :

Intro
G--6--6--5h6p5-----------
D------------------6--3----
A-------------------------4-
E---------------------------

à enchainer avec le couplet :
G-----3/5--5h6--6p5------------------------
D-----------------------6--3------------------
A--1--------------------------4\1--1/3--3\1-
E----------------------------------------------

(en boucle avec, bien sûr, des tas de variations)

Refrain :
G-----------------------------------------------------3/5--5\3--
D-----------------------------------------------------------------
A--1--1--1--1--3--3--3--3--4--4--4--4---------1-------------
E-------------------------------------------1--4-----------------


Voilà, c'est assez rapide, j'ai zappé les transition parce que là je suis trop fatigué Sleep
Mais... Soon come !
Revenir en haut Aller en bas
Jahlove

Jahlove

Nombre de messages : 2
Age : 31
Localisation : Garches
Date d'inscription : 16/01/2010

Tablatures basse Groundation - Page 7 Empty
MessageSujet: Re: Tablatures basse Groundation   Tablatures basse Groundation - Page 7 EmptyJeu 21 Jan - 6:15

Merci Usul j'ai essayé en essayant des variantes sa passe bien et sa se prend vite en mains. Encore merci à toi si t'en déchiffre d'autres n'hésite pas Wink
Revenir en haut Aller en bas
Usul
Grounded Fan
Grounded Fan
Usul

Nombre de messages : 76
Age : 28
Localisation : Lagny, 77
Date d'inscription : 05/11/2009

Tablatures basse Groundation - Page 7 Empty
MessageSujet: Re: Tablatures basse Groundation   Tablatures basse Groundation - Page 7 EmptyJeu 21 Jan - 8:39

Pas de problème Wink

Tout frais pondu :

Tablatures basse Groundation - Page 7 Sologround2.th

La tab du solo de Glory to the Kings ! Je pense qu'elle est juste, mais si il y a des erreurs, signalez moi What a Face
Après j'ai mis le doigté qui me paraissait le plus efficace, mais ça n'engage que moi, hésitez pas à chercher d'autres doigtés ^^
Revenir en haut Aller en bas
Wooten2a
Absolute Grounded
Absolute Grounded
Wooten2a

Nombre de messages : 1102
Age : 38
Localisation : re-Ajaccio
Date d'inscription : 20/02/2007

Tablatures basse Groundation - Page 7 Empty
MessageSujet: Re: Tablatures basse Groundation   Tablatures basse Groundation - Page 7 EmptyMer 10 Fév - 2:56

J'ai pris une peu de temps pour regarder le solo de de Glory To The Kings. C'est du beau boulot Usul! J'ai fait deux trois modifications, selon ce que j'entend:
Tablatures basse Groundation - Page 7 Sologr11

J'ai surtout rajouté des ghost notes et une ou deux cordes a vide, ce sont surtout des accents. Et j'ai aussi enlevé des notes que je n'entend pas!
Mais je n'ai pas l'oreille bionique, donc a prendre avec des pincettes...
Revenir en haut Aller en bas
Usul
Grounded Fan
Grounded Fan
Usul

Nombre de messages : 76
Age : 28
Localisation : Lagny, 77
Date d'inscription : 05/11/2009

Tablatures basse Groundation - Page 7 Empty
MessageSujet: Re: Tablatures basse Groundation   Tablatures basse Groundation - Page 7 EmptyMer 10 Fév - 4:38

Pour les ghost notes, je ne les ai volontairement pas mises, je laisse ça à l'interprétation de chacun. Sinon pour le reste, je suis à peu près sûr du ré en 12eme case 3eme corde (début de la 2eme ligne sur la tab), après c'est clair que beaucoup de notes sont assez inaudibles, d'ailleurs je trouve ce solo étrangement sous-mixé, c'est peu être dû au son très rond de Newman, avec très peu d'attaque...
Revenir en haut Aller en bas
soujaa
Grounded Fighter
Grounded Fighter
soujaa

Nombre de messages : 563
Localisation : Somewhere in the World
Date d'inscription : 10/12/2008

Tablatures basse Groundation - Page 7 Empty
MessageSujet: Re: Tablatures basse Groundation   Tablatures basse Groundation - Page 7 EmptyJeu 18 Fév - 22:16

J'suis pas très d'accord avec la basse de Here I Am version USUL.
Voici la mienne....
1ère partie la suite pour plus tard

HERE I AM Tablature

Intro
G-5-6-5-6--5-3--------!-5H6--6-5--6-5---------------!
D-------------5-3-------!-----------------6-------------!
A-------------------1----!------------------1-1--3-3-1-!
E------------------------!--------------------------------!

Vengeances grows up...
G-3-3H5---5H6---6-5-3--------------------!
D-------------------------6-3----------------!
A------------------------------1--1H3--3-1--!
E----------------------------------------------!

G-3-3H5---5H6---6-5-3---------------------!
D-------------------------6-3-----------------!
A------------------------------1--1H3--3-1--!
E----------------------------------------------!

Still I man Here I am Here I am
G-------------!------------------------------------------------!
D-33333333-!------------------------------------------------!
A-------------!-1111---3333----4444--------1--1H3---3-1-!
E-------------!---------------------------1-4------------------!

Oh!can't .. Here I am Here I am
G-3-1------!---------------------------------------------!
D----1-4---!---------------------------------------------!
A--------5-!-1111---3333----4444------1--1H3---3-1-!
E----------!---------------------------1-4----------------!

Vengeances grows up...
G-3-3H5---5H6---6-5-3--------------------!
D-------------------------6-3----------------!
A------------------------------1--1H3--3-1--!
E----------------------------------------------!

G-3-3H5---5H6---6-5-3------------------------!
D--------------------------6-3------------------!
A--------------------------------1--1H3--3-1--!
E-----------------------------------------------!


Still I man Here I am Here I am
G-------------!--------------------------------------------------!
D-33333333-!-------------------------------------------------!
A-------------!-1111---3333----4444---------1--1H3---3-1-!
E--------------!--------------------------1-4-------------------!


Oh!Talk to Jah Here I am Here I am
G--------------!----------------------------------------------!
D----33333--!-----------------------------------------------!
A-1-----------!-1111---3333--4444--------1--1H3--3-1---!
E-------------!-------------------------1-4-------------------!
Revenir en haut Aller en bas
Forster
Grounded Soldier
Grounded Soldier
Forster

Nombre de messages : 286
Localisation : paris/bordeaux
Date d'inscription : 11/08/2006

Tablatures basse Groundation - Page 7 Empty
MessageSujet: Re: Tablatures basse Groundation   Tablatures basse Groundation - Page 7 EmptyMer 10 Mar - 0:55

Salut à tous,

Je voulais savoir si certains d'entre vous travaillaient avec garage band sur mac??
Je viens d'acheter une interface USB reliant la basse à l'ordi, mais je suis un peu perdu devant l'incroyable éventail de possibilités proposé par garage band..

Comment baisser la basse d'un morceau avant de rejouer soi même la ligne de basse?? Avec quel logiciel puis je par la suite synchronisé vidéo et audio??

Merci pour vos réponses, et merci pour le solo de glory to the kings!
Revenir en haut Aller en bas
Forster
Grounded Soldier
Grounded Soldier
Forster

Nombre de messages : 286
Localisation : paris/bordeaux
Date d'inscription : 11/08/2006

Tablatures basse Groundation - Page 7 Empty
MessageSujet: Re: Tablatures basse Groundation   Tablatures basse Groundation - Page 7 EmptyMar 16 Mar - 4:02

https://www.youtube.com/watch?v=gBc6y6q83Po


Voila une de mes premières covers. Loin du maître Wooten tout de même..Il y en a quelques autres sur mon profil. Je suis pas trop en place au début et pendant le solo de glory to the kings mais j'ai pas pu résister...les commentaires sont bienvenus!

J'ai envie au passage de vanter la solution de logiciels appel, garageband et imovie, vraiment très pratique, simple et ultra complet!! je regrette pas l'achat de mon mac dont le temps de vie dépassera sans doute celui de 3 PC !!
Revenir en haut Aller en bas
Wooten2a
Absolute Grounded
Absolute Grounded
Wooten2a

Nombre de messages : 1102
Age : 38
Localisation : re-Ajaccio
Date d'inscription : 20/02/2007

Tablatures basse Groundation - Page 7 Empty
MessageSujet: Re: Tablatures basse Groundation   Tablatures basse Groundation - Page 7 EmptyJeu 18 Mar - 21:45

Tes morceaux sont sympa Forster!
Pour abaisser la basse d'un morceau depuis: en général un "coupe bas" ou un "passe haut" vers 200hz suffit (que tu trouveras dans un equaliser de Garage Band surement). Mais si tu as mis ces vidéos en ligne c'est que tu as eu les réponses à tes questions!
Quelle est cette Jazzbass?
Revenir en haut Aller en bas
Forster
Grounded Soldier
Grounded Soldier
Forster

Nombre de messages : 286
Localisation : paris/bordeaux
Date d'inscription : 11/08/2006

Tablatures basse Groundation - Page 7 Empty
MessageSujet: Re: Tablatures basse Groundation   Tablatures basse Groundation - Page 7 EmptyVen 19 Mar - 21:19

Effectivement j'ai trouvé l'égaliseur!

Merci! C'est ma squier JB vintage, j'ai juste enlevé le cache noir Wink
Revenir en haut Aller en bas
flea67
Noob
Noob


Nombre de messages : 11
Date d'inscription : 15/07/2010

Tablatures basse Groundation - Page 7 Empty
MessageSujet: Re: Tablatures basse Groundation   Tablatures basse Groundation - Page 7 EmptyJeu 15 Juil - 5:35

salut je suis nouveau sur le site!!j'aimerai bien vous faire partager les quelques tablatures de basse de groundation que j'ai trouvé a l'oreille mais je sais pas trop comment faire donc si quelq'un peut m'aider merci!!!
Revenir en haut Aller en bas
Doud
Grounded Warrior
Grounded Warrior
Doud

Nombre de messages : 906
Age : 36
Localisation : Nîmes
Date d'inscription : 19/02/2007

Tablatures basse Groundation - Page 7 Empty
MessageSujet: Re: Tablatures basse Groundation   Tablatures basse Groundation - Page 7 EmptyJeu 15 Juil - 7:15

flea67 a écrit:
salut je suis nouveau sur le site!!j'aimerai bien vous faire partager les quelques tablatures de basse de groundation que j'ai trouvé a l'oreille mais je sais pas trop comment faire donc si quelq'un peut m'aider merci!!!

salut !

tu peux, si tes tablatures sont sur des fichiers, créer une archive avec le logiciel winrar (clic pour télécharger) dans laquelle tu mets tous tes fichiers, et héberger l'archive sur le site http://dl.free.fr
quand ton fichier sera "uploadé", le site te donnera un lien qu'il te suffira de coller ici.

Sinon tu fais comme nous, tu retranscris tout ici à la main.

Merci de ta participation !
Revenir en haut Aller en bas
flea67
Noob
Noob


Nombre de messages : 11
Date d'inscription : 15/07/2010

Tablatures basse Groundation - Page 7 Empty
MessageSujet: Re: Tablatures basse Groundation   Tablatures basse Groundation - Page 7 EmptyMer 21 Juil - 5:21

j'ai trouvé des parties de riff de quelques chansons donc j'en met quelques unes maintenant je garde le reste pour la suite.pour les autres riff des chansons je chercherait plus tard et je les mettrait quand je les trouverait!!!bonne gratouille a tous...

long long ago

---------------------------------5--------5------------------------------------------
x-7-----------------------5--7-----7------7---------7------------------------57---
----x------2/5--5--87------------------------x-3/7----x---------2/5--5-87----x--
-------5-3--------------------------------------------------5--3-------------------5

----------------7-------------------------------------------------------7h9/--------
-------5--789--------OU----------5-------------------------5---789---------------
--567------------------------567-----------5----OU---567-------------------------
---------------------------------------567-------------------------------------------

voila pour l'instant j'ai ça....j'ai pas encore la fin du 2e riff et il manque la transition...

young tree

--------------------------------------------------------------------------------------
----------------------------------------------------------4------6-------------------
-5--5h7/------------variation( parmi plusieurs)-2/5----5/7----------------4----
-----------5/2--5/2---------------------------------------------------5/222-5--52-

transition+début refrain
-----------------------8----8--------------------------------------------------------
--------------------------9----9-----------------------------------------------------
-----------7--9--------------------9-------------------------------------------------
--5/2--5--------------------------------777-----------------------------------------

voila je bloque ici....si quelqu'un peut m'aider ou a des corrections n'hésiter pas...a bientot pour d'autres tab.
Revenir en haut Aller en bas
flea67
Noob
Noob


Nombre de messages : 11
Date d'inscription : 15/07/2010

Tablatures basse Groundation - Page 7 Empty
MessageSujet: Re: Tablatures basse Groundation   Tablatures basse Groundation - Page 7 EmptyMer 21 Juil - 5:30

voici quelques corrections des tab précédentes

pont de jah jah know
----------------------------------------------------------------------------------
--------------------------------------------------------------------------6h8-6--
-----------------------------------------------------------------------6-----------
-1--1413--3636---6666--44-4/8---4- 1--1413--3636--6666--4-------------

craven fe dead

----------------------------------------------------------------------------------
----------------------------------------------------------------------------------
-------1/5---8/10-----------1/5---8/13-----------1/55--1h3-1---------------
-1h3------------------1h3-------------------1h3-------------------------------



----------------------------------------------------------------------------------
----------------------------------------------------------------------------------
-17/---5-------------------------8765----------------------------------------------
-----------3-33333---------------------------3-33333-----------------------------
Revenir en haut Aller en bas
flea67
Noob
Noob


Nombre de messages : 11
Date d'inscription : 15/07/2010

Tablatures basse Groundation - Page 7 Empty
MessageSujet: Re: Tablatures basse Groundation   Tablatures basse Groundation - Page 7 EmptyMer 21 Juil - 23:36

dsl petite erreur a la fin du pont de Jah Jah know

----------------------------------------------
----------------6h8-6---------------------------
-------------6---------------------------------
--6666--4-------------------------------------------
Revenir en haut Aller en bas
flea67
Noob
Noob


Nombre de messages : 11
Date d'inscription : 15/07/2010

Tablatures basse Groundation - Page 7 Empty
MessageSujet: Re: Tablatures basse Groundation   Tablatures basse Groundation - Page 7 EmptyMer 21 Juil - 23:42

young tree variations (petit bug sur l'autre tab)

-----------------------------------------------------------
---------4-------6----------------------------------------
---2/5-----5/7-----------------4------------------------
---------------------5/222--5-----5-2-------------------
Revenir en haut Aller en bas
Wooten2a
Absolute Grounded
Absolute Grounded
Wooten2a

Nombre de messages : 1102
Age : 38
Localisation : re-Ajaccio
Date d'inscription : 20/02/2007

Tablatures basse Groundation - Page 7 Empty
MessageSujet: Re: Tablatures basse Groundation   Tablatures basse Groundation - Page 7 EmptyJeu 22 Juil - 1:14

Merci de la participation!
Il faudra qu'on essaie de mettre tout ça au propre pour qu'Antoine les mette sur le site, avec les partitions guitare.
Revenir en haut Aller en bas
flea67
Noob
Noob


Nombre de messages : 11
Date d'inscription : 15/07/2010

Tablatures basse Groundation - Page 7 Empty
MessageSujet: Re: Tablatures basse Groundation   Tablatures basse Groundation - Page 7 EmptyJeu 29 Juil - 6:33

salut a tous!!!
je vais prochainement mettre les tablatures complétes de if I, Culture war 1 et freedom taking over!!
si qulequ'un veut une tab d'autres chansons dites le moi je peux essayer de trouver cela!!
a+
Revenir en haut Aller en bas
Usul
Grounded Fan
Grounded Fan
Usul

Nombre de messages : 76
Age : 28
Localisation : Lagny, 77
Date d'inscription : 05/11/2009

Tablatures basse Groundation - Page 7 Empty
MessageSujet: Re: Tablatures basse Groundation   Tablatures basse Groundation - Page 7 EmptyLun 20 Déc - 3:41

Ca a peut être déjà été relevé, mais en tous cas voilà ma version du solo de Head Strong :

Tablatures basse Groundation - Page 7 Tabsoloheadstrong.th

Les barres correspondent pas à des mesures mais à un semblant d'organisation rythmique en "phrases". Avec les tabs c'est pas évident, ça devient vite ardu à lire...

Sinon une petite impro sur Here I Am :



C'est encore plein d'erreurs et d'hésitations, pis la qualité est pourrie (film à l'appareil photo oblige) mais j'espère que vous apprécierez ^^
Si y'en a que ça intéressent, dites moi, je peux poster le schéma sur le manche de la gamme utilisée.
Revenir en haut Aller en bas
Doud
Grounded Warrior
Grounded Warrior
Doud

Nombre de messages : 906
Age : 36
Localisation : Nîmes
Date d'inscription : 19/02/2007

Tablatures basse Groundation - Page 7 Empty
MessageSujet: Re: Tablatures basse Groundation   Tablatures basse Groundation - Page 7 EmptySam 25 Déc - 9:00

oh que c'est bon !
gg Wink
Revenir en haut Aller en bas
draniop
Grounded Fan
Grounded Fan
draniop

Nombre de messages : 90
Localisation : Bravitzlana rubakalva
Date d'inscription : 08/02/2009

Tablatures basse Groundation - Page 7 Empty
MessageSujet: Re: Tablatures basse Groundation   Tablatures basse Groundation - Page 7 EmptyDim 23 Oct - 4:46





C'est vite fait mais c'est tjs sympa a jouer si ca peut aider quelqu'un. jocolor
Revenir en haut Aller en bas
Oups



Nombre de messages : 1
Date d'inscription : 18/06/2014

Tablatures basse Groundation - Page 7 Empty
MessageSujet: Re: Tablatures basse Groundation   Tablatures basse Groundation - Page 7 EmptyMer 18 Juin - 1:29

Salut à tous!
Premier message sur ce forum!
J'ai commencé y a quelques jours à retranscrire quelques tabs de basse avant de tomber sur ce topic Smile

Je voulais tout d'abord revenir sur la tab de Freedom Taking Over :

J'avais vu ceci :
-----------------------
-----------14-12-------
------------------14---
-7-7-5-7---------------

mais j'entends ça donc jvoulais une confirmation du forum Smile
-----------------------
-----------14-12-------
------------------12---
-7-7-5-7---------------

Sinon j'ai commencé à So Blind :
Bon je skip l'intro Smile

Couplet : avec selon les moments des petites variations
----------------------------11-11
-9-11--------x-9-9-11------------
----------------------------------
------9-9-------------9-9---------

Like a rolling stone you’re always away...

--------------------------------
------------------------6-6-----
--------4-2---5-4--4-4------4--
-2-2--------4-----------------4-

But you are soooooooooooooooo blind (alors la jsuis pas sur mais ca passe bien Smile )

--------------------------------------------------------------------
----------------------------------------------------------------2-0-
--------------X-4-4-4----------------------------X-4-4-4--2-0------
-2-2--X-2-2-----------4 ou 7--------2-2--X-2-2---------------------(2-2- partie juste au dessus)

I'm trying Hard....
--------------------------------------
--------------------------------------
------------------4-4-4--------------------------------4-4-4--------------
-2-2-2----2-2-2----------4-4-4--------2-2-2----2-2-2----------4-4-4-------

N'hésitez pas à la corriger elle n'est surement pas correcte à 100% mais jpense qu'elle ne sonne pas faux
Revenir en haut Aller en bas
Contenu sponsorisé




Tablatures basse Groundation - Page 7 Empty
MessageSujet: Re: Tablatures basse Groundation   Tablatures basse Groundation - Page 7 Empty

Revenir en haut Aller en bas
 
Tablatures basse Groundation
Revenir en haut 
Page 7 sur 7Aller à la page : Précédent  1, 2, 3, 4, 5, 6, 7

Permission de ce forum:Vous ne pouvez pas répondre aux sujets dans ce forum
Le Forum Groundation.fr :: Actualité de Groundation & autres projets :: La musique by Groundation-
Sauter vers:  
Ne ratez plus aucun deal !
Abonnez-vous pour recevoir par notification une sélection des meilleurs deals chaque jour.
IgnorerAutoriser